  0
SECTION
  2
HEADER
  9
$ACADVER
  1
AC1009
  9
$INSBASE
 10
26.00793242901677
 20
20.15217391304348
 30
0.0
  9
$EXTMIN
 10
25.17950530427058
 20
20.15217391304348
 30
0.0
  9
$EXTMAX
 10
341.8363595537568
 20
238.9806010377864
 30
0.0
  9
$LIMMIN
 10
0.0
 20
0.0
  9
$LIMMAX
 10
420.0
 20
297.0
  9
$ORTHOMODE
 70
     0
  9
$REGENMODE
 70
     0
  9
$FILLMODE
 70
     1
  9
$QTEXTMODE
 70
     0
  9
$MIRRTEXT
 70
     0
  9
$DRAGMODE
 70
     2
  9
$LTSCALE
 40
1.0
  9
$OSMODE
 70
     0
  9
$ATTMODE
 70
     1
  9
$TEXTSIZE
 40
3.5
  9
$TRACEWID
 40
0.1
  9
$TEXTSTYLE
  7
STANDARD
  9
$CLAYER
  8
0
  9
$CELTYPE
  6
BYLAYER
  9
$CECOLOR
 62
   256
  9
$DIMSCALE
 40
1.0
  9
$DIMASZ
 40
2.0
  9
$DIMEXO
 40
1.0
  9
$DIMDLI
 40
8.0
  9
$DIMRND
 40
0.0
  9
$DIMDLE
 40
0.0
  9
$DIMEXE
 40
2.0
  9
$DIMTP
 40
0.1
  9
$DIMTM
 40
0.1
  9
$DIMTXT
 40
3.5
  9
$DIMCEN
 40
2.0
  9
$DIMTSZ
 40
0.0
  9
$DIMTOL
 70
     0
  9
$DIMLIM
 70
     0
  9
$DIMTIH
 70
     0
  9
$DIMTOH
 70
     0
  9
$DIMSE1
 70
     0
  9
$DIMSE2
 70
     0
  9
$DIMTAD
 70
     1
  9
$DIMZIN
 70
     0
  9
$DIMBLK
  1

  9
$DIMASO
 70
     1
  9
$DIMSHO
 70
     0
  9
$DIMPOST
  1

  9
$DIMAPOST
  1

  9
$DIMALT
 70
     0
  9
$DIMALTD
 70
     2
  9
$DIMALTF
 40
25.39999999999999
  9
$DIMLFAC
 40
1.0
  9
$DIMTOFL
 70
     0
  9
$DIMTVP
 40
0.0
  9
$DIMTIX
 70
     0
  9
$DIMSOXD
 70
     0
  9
$DIMSAH
 70
     0
  9
$DIMBLK1
  1

  9
$DIMBLK2
  1

  9
$DIMSTYLE
  2
*UNNAMED
  9
$DIMCLRD
 70
     0
  9
$DIMCLRE
 70
     0
  9
$DIMCLRT
 70
     0
  9
$DIMTFAC
 40
1.0
  9
$DIMGAP
 40
0.09
  9
$LUNITS
 70
     2
  9
$LUPREC
 70
     3
  9
$SKETCHINC
 40
0.1
  9
$FILLETRAD
 40
20.0
  9
$AUNITS
 70
     0
  9
$AUPREC
 70
     1
  9
$MENU
  1

  9
$ELEVATION
 40
0.0
  9
$PELEVATION
 40
0.0
  9
$THICKNESS
 40
0.0
  9
$LIMCHECK
 70
     0
  9
$BLIPMODE
 70
     0
  9
$CHAMFERA
 40
0.0
  9
$CHAMFERB
 40
0.0
  9
$SKPOLY
 70
     1
  9
$TDCREATE
 40
2448565.600836574
  9
$TDUPDATE
 40
2449393.437456713
  9
$TDINDWG
 40
0.0015321759
  9
$TDUSRTIMER
 40
0.0015321759
  9
$USRTIMER
 70
     1
  9
$ANGBASE
 50
0.0
  9
$ANGDIR
 70
     0
  9
$PDMODE
 70
     0
  9
$PDSIZE
 40
0.0
  9
$PLINEWID
 40
0.0
  9
$COORDS
 70
     2
  9
$SPLFRAME
 70
     0
  9
$SPLINETYPE
 70
     6
  9
$SPLINESEGS
 70
     8
  9
$ATTDIA
 70
     1
  9
$ATTREQ
 70
     1
  9
$HANDLING
 70
     0
  9
$HANDSEED
  5
27E
  9
$SURFTAB1
 70
     6
  9
$SURFTAB2
 70
     6
  9
$SURFTYPE
 70
     6
  9
$SURFU
 70
     6
  9
$SURFV
 70
     6
  9
$UCSNAME
  2

  9
$UCSORG
 10
0.0
 20
0.0
 30
0.0
  9
$UCSXDIR
 10
1.0
 20
0.0
 30
0.0
  9
$UCSYDIR
 10
0.0
 20
1.0
 30
0.0
  9
$PUCSNAME
  2

  9
$PUCSORG
 10
0.0
 20
0.0
 30
0.0
  9
$PUCSXDIR
 10
1.0
 20
0.0
 30
0.0
  9
$PUCSYDIR
 10
0.0
 20
1.0
 30
0.0
  9
$USERI1
 70
     0
  9
$USERI2
 70
     3
  9
$USERI3
 70
    15
  9
$USERI4
 70
     0
  9
$USERI5
 70
     0
  9
$USERR1
 40
1.0
  9
$USERR2
 40
1.0
  9
$USERR3
 40
0.0
  9
$USERR4
 40
1.0
  9
$USERR5
 40
0.0
  9
$WORLDVIEW
 70
     1
  9
$SHADEDGE
 70
     3
  9
$SHADEDIF
 70
    70
  9
$TILEMODE
 70
     1
  9
$MAXACTVP
 70
    16
  9
$PINSBASE
 10
0.0
 20
0.0
 30
0.0
  9
$PLIMCHECK
 70
     0
  9
$PEXTMIN
 10
1.000000000000000E+20
 20
1.000000000000000E+20
 30
1.000000000000000E+20
  9
$PEXTMAX
 10
-1.000000000000000E+20
 20
-1.000000000000000E+20
 30
-1.000000000000000E+20
  9
$PLIMMIN
 10
0.0
 20
0.0
  9
$PLIMMAX
 10
12.0
 20
9.0
  9
$UNITMODE
 70
     0
  9
$VISRETAIN
 70
     0
  9
$PLINEGEN
 70
     0
  9
$PSLTSCALE
 70
     0
  9
$TREEDEPTH
 70
  3020
  9
$DWGCODEPAGE
  3
undefined
  0
ENDSEC
  0
SECTION
  2
TABLES
  0
TABLE
  2
VPORT
 70
     2
  0
VPORT
  2
*ACTIVE
 70
     0
 10
0.0
 20
0.0
 11
1.0
 21
1.0
 12
183.5079324290185
 22
143.6161569638923
 13
0.0
 23
0.0
 14
1.0
 24
1.0
 15
10.0
 25
10.0
 16
0.0
 26
0.0
 36
1.0
 17
0.0
 27
0.0
 37
0.0
 40
246.9279661016977
 41
1.275675675675675
 42
50.0
 43
0.0
 44
0.0
 50
0.0
 51
0.0
 71
     0
 72
   100
 73
     1
 74
     0
 75
     0
 76
     0
 77
     0
 78
     0
  0
ENDTAB
  0
TABLE
  2
LTYPE
 70
     2
  0
LTYPE
  2
AUSGEZOGEN
 70
    64
  3
Solid line
 72
    65
 73
     0
 40
0.0
  0
LTYPE
  2
ITEM-STRICHPGR
 70
    64
  3
____ . ____ . ____ . ____ . ____ . ____ . ____
 72
    65
 73
     4
 40
15.0
 49
10.0
 49
-2.5
 49
0.0
 49
-2.5
  0
ENDTAB
  0
TABLE
  2
LAYER
 70
     5
  0
LAYER
  2
0
 70
     0
 62
     7
  6
AUSGEZOGEN
  0
LAYER
  2
ITEM_50
 70
    64
 62
     7
  6
AUSGEZOGEN
  0
LAYER
  2
ITEM_25
 70
    64
 62
     3
  6
AUSGEZOGEN
  0
LAYER
  2
ITEM_HILFE
 70
    64
 62
     3
  6
AUSGEZOGEN
  0
LAYER
  2
ITEM_STPG
 70
    64
 62
     4
  6
ITEM-STRICHPGR
  0
ENDTAB
  0
TABLE
  2
STYLE
 70
     1
  0
STYLE
  2
STANDARD
 70
     0
 40
0.0
 41
1.0
 50
0.0
 71
     0
 42
3.5
  3
iso
  4

  0
ENDTAB
  0
TABLE
  2
VIEW
 70
     0
  0
ENDTAB
  0
TABLE
  2
UCS
 70
     0
  0
ENDTAB
  0
TABLE
  2
APPID
 70
     1
  0
APPID
  2
ACAD
 70
    64
  0
ENDTAB
  0
TABLE
  2
DIMSTYLE
 70
     0
  0
ENDTAB
  0
ENDSEC
  0
SECTION
  2
BLOCKS
  0
ENDSEC
  0
SECTION
  2
ENTITIES
  0
CIRCLE
  8
ITEM_50
 10
54.0079324290066
 20
153.4521739130398
 30
0.0
 40
2.85
  0
CIRCLE
  8
ITEM_50
 10
66.00793242900256
 20
138.1521739130505
 30
0.0
 40
3.25
  0
CIRCLE
  8
ITEM_50
 10
106.0079324290025
 20
138.1521739130505
 30
0.0
 40
3.25
  0
CIRCLE
  8
ITEM_50
 10
118.0079324291177
 20
153.4521739129916
 30
0.0
 40
2.85
  0
CIRCLE
  8
ITEM_50
 10
118.0079324291177
 20
208.8521739130769
 30
0.0
 40
2.85
  0
CIRCLE
  8
ITEM_50
 10
106.0079324290026
 20
217.952173913053
 30
0.0
 40
3.25
  0
CIRCLE
  8
ITEM_50
 10
66.00793242900262
 20
217.952173913053
 30
0.0
 40
3.25
  0
CIRCLE
  8
ITEM_50
 10
54.0079324290066
 20
208.8521739130287
 30
0.0
 40
2.85
  0
POINT
  8
ITEM_HILFE
 10
86.00793242901677
 20
118.1521739130403
 30
0.0
  0
LINE
  8
ITEM_STPG
 10
86.00793242901677
 20
181.1521739130403
 30
0.0
 11
86.00793242901677
 21
145.4492169692309
 31
0.0
  0
LINE
  8
ITEM_STPG
 10
86.00793242901677
 20
181.1521739130403
 30
0.0
 11
50.3049754852074
 21
181.1521739130403
 31
0.0
  0
LINE
  8
ITEM_STPG
 10
86.00793242901677
 20
181.1521739130403
 30
0.0
 11
86.00793242901677
 21
216.8551308568496
 31
0.0
  0
LINE
  8
ITEM_STPG
 10
86.00793242901677
 20
181.1521739130403
 30
0.0
 11
121.7108893728261
 21
181.1521739130403
 31
0.0
  0
LINE
  8
ITEM_50
 10
136.0079324290167
 20
134.1521739130402
 30
0.0
 11
36.00793242901677
 21
134.1521739130403
 31
0.0
  0
LINE
  8
ITEM_50
 10
36.00793242901677
 20
142.1521739130403
 30
0.0
 11
136.0079324290167
 21
142.1521739130402
 31
0.0
  0
LINE
  8
ITEM_50
 10
65.15127881440257
 20
174.1521739130403
 30
0.0
 11
36.00793242901677
 21
174.1521739130403
 31
0.0
  0
LINE
  8
ITEM_50
 10
136.0079324290167
 20
174.1521739130402
 30
0.0
 11
106.8645860436309
 21
174.1521739130403
 31
0.0
  0
LINE
  8
ITEM_50
 10
107.9851934048526
 20
182.1521739130402
 30
0.0
 11
136.0079324290167
 21
182.1521739130402
 31
0.0
  0
LINE
  8
ITEM_50
 10
36.00793242901677
 20
182.1521739130403
 30
0.0
 11
64.03067145318088
 21
182.1521739130403
 31
0.0
  0
LINE
  8
ITEM_50
 10
136.0079324290168
 20
214.1521739130402
 30
0.0
 11
36.00793242901677
 21
214.1521739130403
 31
0.0
  0
LINE
  8
ITEM_50
 10
36.00793242901679
 20
222.1521739130403
 30
0.0
 11
136.0079324290168
 21
222.1521739130402
 31
0.0
  0
CIRCLE
  8
ITEM_50
 10
86.00793242901677
 20
197.1521739130403
 30
0.0
 40
5.5
  0
CIRCLE
  8
ITEM_50
 10
86.00793242901677
 20
197.1521739130403
 30
0.0
 40
5.0
  0
ARC
  8
ITEM_25
 10
86.00793242901677
 20
181.1521739130403
 30
0.0
 40
8.000000000000003
 50
171.0
 51
99.0
  0
CIRCLE
  8
ITEM_50
 10
86.00793242901677
 20
181.1521739130403
 30
0.0
 40
6.915
  0
CIRCLE
  8
ITEM_50
 10
97.00793242901677
 20
170.1521739130402
 30
0.0
 40
2.5
  0
CIRCLE
  8
ITEM_50
 10
97.0079324290168
 20
192.1521739130403
 30
0.0
 40
2.5
  0
CIRCLE
  8
ITEM_50
 10
75.00793242901677
 20
192.1521739130403
 30
0.0
 40
2.5
  0
CIRCLE
  8
ITEM_50
 10
86.00793242901677
 20
181.1521739130403
 30
0.0
 40
22.0
  0
CIRCLE
  8
ITEM_50
 10
75.00793242901677
 20
170.1521739130403
 30
0.0
 40
2.5
  0
ARC
  8
ITEM_50
 10
142.0079324290167
 20
234.1521739130402
 30
0.0
 40
4.0
 50
0.0
 51
89.99999999999997
  0
ARC
  8
ITEM_50
 10
142.0079324290167
 20
124.1521739130402
 30
0.0
 40
4.0
 50
270.0
 51
0.0
  0
ARC
  8
ITEM_50
 10
30.00793242901677
 20
124.1521739130403
 30
0.0
 40
4.0
 50
180.0
 51
270.0
  0
ARC
  8
ITEM_50
 10
30.00793242901679
 20
234.1521739130403
 30
0.0
 40
4.0
 50
89.99999999999998
 51
180.0
  0
LINE
  8
ITEM_50
 10
136.0079324290168
 20
238.1521739130402
 30
0.0
 11
136.0079324290168
 21
120.1521739130402
 31
0.0
  0
LINE
  8
ITEM_50
 10
36.00793242901677
 20
120.1521739130403
 30
0.0
 11
36.00793242901679
 21
238.1521739130403
 31
0.0
  0
LINE
  8
ITEM_50
 10
142.0079324290167
 20
120.1521739130402
 30
0.0
 11
30.00793242901677
 21
120.1521739130403
 31
0.0
  0
LINE
  8
ITEM_50
 10
146.0079324290167
 20
234.1521739130402
 30
0.0
 11
146.0079324290167
 21
124.1521739130402
 31
0.0
  0
LINE
  8
ITEM_50
 10
30.00793242901679
 20
238.1521739130403
 30
0.0
 11
142.0079324290167
 21
238.1521739130402
 31
0.0
  0
LINE
  8
ITEM_50
 10
26.00793242901677
 20
124.1521739130403
 30
0.0
 11
26.00793242901679
 21
234.1521739130403
 31
0.0
  0
LINE
  8
ITEM_STPG
 10
86.00793242901677
 20
182.6521739130403
 30
0.0
 11
111.3524423279676
 21
182.6521739130403
 31
0.0
  0
LINE
  8
ITEM_STPG
 10
86.00793242901677
 20
182.6521739130403
 30
0.0
 11
60.84529487295257
 21
182.6521739130403
 31
0.0
  0
LINE
  8
ITEM_50
 10
84.5645567560427
 20
199.6521739130403
 30
0.0
 11
83.12118108306863
 21
197.1521739130403
 31
0.0
  0
LINE
  8
ITEM_50
 10
83.12118108306863
 20
197.1521739130403
 30
0.0
 11
84.5645567560427
 21
194.6521739130403
 31
0.0
  0
LINE
  8
ITEM_50
 10
84.5645567560427
 20
194.6521739130403
 30
0.0
 11
87.45130810199084
 21
194.6521739130403
 31
0.0
  0
LINE
  8
ITEM_50
 10
87.45130810199084
 20
194.6521739130403
 30
0.0
 11
88.89468377496491
 21
197.1521739130403
 31
0.0
  0
LINE
  8
ITEM_50
 10
88.89468377496491
 20
197.1521739130403
 30
0.0
 11
87.45130810199084
 21
199.6521739130403
 31
0.0
  0
LINE
  8
ITEM_50
 10
87.45130810199084
 20
199.6521739130403
 30
0.0
 11
84.5645567560427
 21
199.6521739130403
 31
0.0
  0
LINE
  8
ITEM_50
 10
84.5645567560427
 20
183.6521739130403
 30
0.0
 11
83.12118108306863
 21
181.1521739130403
 31
0.0
  0
LINE
  8
ITEM_50
 10
83.12118108306863
 20
181.1521739130403
 30
0.0
 11
84.5645567560427
 21
178.6521739130403
 31
0.0
  0
LINE
  8
ITEM_50
 10
84.5645567560427
 20
178.6521739130403
 30
0.0
 11
87.45130810199084
 21
178.6521739130403
 31
0.0
  0
LINE
  8
ITEM_50
 10
87.45130810199084
 20
178.6521739130403
 30
0.0
 11
88.89468377496491
 21
181.1521739130403
 31
0.0
  0
LINE
  8
ITEM_50
 10
88.89468377496491
 20
181.1521739130403
 30
0.0
 11
87.45130810199084
 21
183.6521739130403
 31
0.0
  0
LINE
  8
ITEM_50
 10
87.45130810199084
 20
183.6521739130403
 30
0.0
 11
84.5645567560427
 21
183.6521739130403
 31
0.0
  0
POINT
  8
ITEM_HILFE
 10
201.0079324290136
 20
136.1521739130403
 30
0.0
  0
CIRCLE
  8
ITEM_50
 10
201.0079324290136
 20
229.1521739130402
 30
0.0
 40
3.0
  0
CIRCLE
  8
ITEM_50
 10
201.0079324290136
 20
229.1521739130402
 30
0.0
 40
7.0
  0
CIRCLE
  8
ITEM_50
 10
231.0079324290136
 20
155.1521739130402
 30
0.0
 40
3.0
  0
CIRCLE
  8
ITEM_50
 10
231.0079324290136
 20
155.1521739130402
 30
0.0
 40
7.0
  0
CIRCLE
  8
ITEM_50
 10
171.0079324290136
 20
155.1521739130403
 30
0.0
 40
3.0
  0
CIRCLE
  8
ITEM_50
 10
171.0079324290136
 20
155.1521739130403
 30
0.0
 40
7.0
  0
LINE
  8
ITEM_50
 10
190.6517748404096
 20
143.1521739130402
 30
0.0
 11
188.3095073298133
 21
143.1521739130402
 31
0.0
  0
LINE
  8
ITEM_50
 10
211.3640900176176
 20
143.1521739130402
 30
0.0
 11
213.7063575282139
 21
143.1521739130402
 31
0.0
  0
ARC
  8
ITEM_50
 10
201.0079324290136
 20
136.1521739130403
 30
0.0
 40
12.5
 50
34.05579774256779
 51
145.9442022574322
  0
ARC
  8
ITEM_50
 10
225.0079324290136
 20
124.1521739130402
 30
0.0
 40
4.0
 50
180.0000000000001
 51
270.0
  0
LINE
  8
ITEM_50
 10
216.3783585779528
 20
140.1521739130403
 30
0.0
 11
219.0079324290135
 21
140.1521739130403
 31
0.0
  0
LINE
  8
ITEM_50
 10
221.0079324290135
 20
138.1521739130403
 30
0.0
 11
221.0079324290136
 21
124.1521739130402
 31
0.0
  0
ARC
  8
ITEM_50
 10
216.3783585779528
 20
142.1521739130403
 30
0.0
 40
2.0
 50
201.3236862634988
 51
270.0
  0
ARC
  8
ITEM_50
 10
219.0079324290135
 20
138.1521739130403
 30
0.0
 40
2.0
 50
0.0
 51
90.0
  0
ARC
  8
ITEM_50
 10
183.0079324290136
 20
138.1521739130403
 30
0.0
 40
2.0
 50
90.0
 51
180.0
  0
ARC
  8
ITEM_50
 10
185.6375062800743
 20
142.1521739130403
 30
0.0
 40
2.0
 50
270.0
 51
338.676313736501
  0
LINE
  8
ITEM_50
 10
181.0079324290136
 20
138.1521739130403
 30
0.0
 11
181.0079324290136
 21
124.1521739130402
 31
0.0
  0
LINE
  8
ITEM_50
 10
185.6375062800743
 20
140.1521739130403
 30
0.0
 11
183.0079324290136
 21
140.1521739130403
 31
0.0
  0
CIRCLE
  8
ITEM_50
 10
201.0079324290136
 20
190.1521739130402
 30
0.0
 40
2.0
  0
ARC
  8
ITEM_50
 10
225.0079324290136
 20
124.1521739130402
 30
0.0
 40
4.0
 50
180.0
 51
270.0
  0
ARC
  8
ITEM_50
 10
177.0079324290136
 20
124.1521739130402
 30
0.0
 40
4.0
 50
270.0
 51
359.9999999999998
  0
LINE
  8
ITEM_50
 10
177.0079324290136
 20
120.1521739130402
 30
0.0
 11
165.0079324290136
 21
120.1521739130402
 31
0.0
  0
ARC
  8
ITEM_50
 10
201.0079324290136
 20
136.1521739130403
 30
0.0
 40
14.5
 50
21.323686263498
 51
158.6763137365021
  0
ARC
  8
ITEM_50
 10
165.0079324290136
 20
234.1521739130402
 30
0.0
 40
4.0
 50
90.0
 51
180.0
  0
LINE
  8
ITEM_50
 10
161.0079324290136
 20
124.1521739130402
 30
0.0
 11
161.0079324290136
 21
234.1521739130402
 31
0.0
  0
ARC
  8
ITEM_50
 10
165.0079324290136
 20
124.1521739130402
 30
0.0
 40
4.0
 50
180.0
 51
270.0
  0
LINE
  8
ITEM_50
 10
237.0079324290136
 20
120.1521739130402
 30
0.0
 11
225.0079324290136
 21
120.1521739130402
 31
0.0
  0
ARC
  8
ITEM_50
 10
237.0079324290136
 20
124.1521739130402
 30
0.0
 40
4.0
 50
270.0
 51
0.0
  0
LINE
  8
ITEM_50
 10
241.0079324290136
 20
234.1521739130403
 30
0.0
 11
241.0079324290136
 21
124.1521739130402
 31
0.0
  0
ARC
  8
ITEM_50
 10
237.0079324290136
 20
234.1521739130403
 30
0.0
 40
4.0
 50
0.0
 51
90.0
  0
LINE
  8
ITEM_50
 10
165.0079324290136
 20
238.1521739130402
 30
0.0
 11
237.0079324290136
 21
238.1521739130403
 31
0.0
  0
LINE
  8
ITEM_50
 10
169.5645567560395
 20
157.6521739130403
 30
0.0
 11
168.1211810830654
 21
155.1521739130403
 31
0.0
  0
LINE
  8
ITEM_50
 10
168.1211810830654
 20
155.1521739130403
 30
0.0
 11
169.5645567560395
 21
152.6521739130403
 31
0.0
  0
LINE
  8
ITEM_50
 10
169.5645567560395
 20
152.6521739130403
 30
0.0
 11
172.4513081019877
 21
152.6521739130403
 31
0.0
  0
LINE
  8
ITEM_50
 10
172.4513081019877
 20
152.6521739130403
 30
0.0
 11
173.8946837749617
 21
155.1521739130403
 31
0.0
  0
LINE
  8
ITEM_50
 10
173.8946837749617
 20
155.1521739130403
 30
0.0
 11
172.4513081019877
 21
157.6521739130403
 31
0.0
  0
LINE
  8
ITEM_50
 10
172.4513081019877
 20
157.6521739130403
 30
0.0
 11
169.5645567560395
 21
157.6521739130403
 31
0.0
  0
LINE
  8
ITEM_50
 10
199.5645567560395
 20
231.6521739130402
 30
0.0
 11
198.1211810830654
 21
229.1521739130402
 31
0.0
  0
LINE
  8
ITEM_50
 10
198.1211810830654
 20
229.1521739130402
 30
0.0
 11
199.5645567560395
 21
226.6521739130402
 31
0.0
  0
LINE
  8
ITEM_50
 10
199.5645567560395
 20
226.6521739130402
 30
0.0
 11
202.4513081019877
 21
226.6521739130402
 31
0.0
  0
LINE
  8
ITEM_50
 10
202.4513081019877
 20
226.6521739130402
 30
0.0
 11
203.8946837749617
 21
229.1521739130402
 31
0.0
  0
LINE
  8
ITEM_50
 10
203.8946837749617
 20
229.1521739130402
 30
0.0
 11
202.4513081019877
 21
231.6521739130402
 31
0.0
  0
LINE
  8
ITEM_50
 10
202.4513081019877
 20
231.6521739130402
 30
0.0
 11
199.5645567560395
 21
231.6521739130402
 31
0.0
  0
LINE
  8
ITEM_50
 10
229.5645567560395
 20
157.6521739130402
 30
0.0
 11
228.1211810830654
 21
155.1521739130402
 31
0.0
  0
LINE
  8
ITEM_50
 10
228.1211810830654
 20
155.1521739130402
 30
0.0
 11
229.5645567560395
 21
152.6521739130402
 31
0.0
  0
LINE
  8
ITEM_50
 10
229.5645567560395
 20
152.6521739130402
 30
0.0
 11
232.4513081019877
 21
152.6521739130402
 31
0.0
  0
LINE
  8
ITEM_50
 10
232.4513081019877
 20
152.6521739130402
 30
0.0
 11
233.8946837749617
 21
155.1521739130402
 31
0.0
  0
LINE
  8
ITEM_50
 10
233.8946837749617
 20
155.1521739130402
 30
0.0
 11
232.4513081019877
 21
157.6521739130402
 31
0.0
  0
LINE
  8
ITEM_50
 10
232.4513081019877
 20
157.6521739130402
 30
0.0
 11
229.5645567560395
 21
157.6521739130402
 31
0.0
  0
CIRCLE
  8
ITEM_50
 10
271.0079324290261
 20
155.1521739130371
 30
0.0
 40
3.399999999999999
  0
CIRCLE
  8
ITEM_50
 10
301.007932429023
 20
229.1521739130371
 30
0.0
 40
3.399999999999999
  0
CIRCLE
  8
ITEM_50
 10
301.007932429023
 20
229.1521739130371
 30
0.0
 40
3.399999999999999
  0
POINT
  8
ITEM_HILFE
 10
261.0079324290199
 20
120.1521739130371
 30
0.0
  0
POINT
  8
ITEM_HILFE
 10
301.0079324290199
 20
123.1521739130371
 30
0.0
  0
POINT
  8
ITEM_HILFE
 10
261.0079324290199
 20
238.1521739130371
 30
0.0
  0
POINT
  8
ITEM_HILFE
 10
281.0079324290199
 20
238.1521739130371
 30
0.0
  0
POINT
  8
ITEM_HILFE
 10
281.0079324290199
 20
233.6521739130371
 30
0.0
  0
POINT
  8
ITEM_HILFE
 10
261.0079324290199
 20
218.1521739130371
 30
0.0
  0
POINT
  8
ITEM_HILFE
 10
265.5079324290199
 20
218.1521739130371
 30
0.0
  0
POINT
  8
ITEM_HILFE
 10
261.0079324290199
 20
178.1521739130371
 30
0.0
  0
POINT
  8
ITEM_HILFE
 10
265.5079324290199
 20
178.1521739130371
 30
0.0
  0
POINT
  8
ITEM_HILFE
 10
261.0079324290199
 20
138.1521739130371
 30
0.0
  0
POINT
  8
ITEM_HILFE
 10
265.5079324290199
 20
138.1521739130371
 30
0.0
  0
LINE
  8
ITEM_STPG
 10
301.0079324290199
 20
181.1521739130371
 30
0.0
 11
321.0079324290199
 21
181.1521739130371
 31
0.0
  0
LINE
  8
ITEM_STPG
 10
301.0079324290199
 20
181.1521739130371
 30
0.0
 11
301.0079324290199
 21
148.0849823162022
 31
0.0
  0
LINE
  8
ITEM_STPG
 10
301.0079324290199
 20
181.1521739130371
 30
0.0
 11
281.0079324290199
 21
181.1521739130371
 31
0.0
  0
LINE
  8
ITEM_STPG
 10
301.0079324290199
 20
136.1521739130371
 30
0.0
 11
301.0079324290199
 21
151.1521739130371
 31
0.0
  0
LINE
  8
ITEM_STPG
 10
301.0079324290199
 20
136.1521739130371
 30
0.0
 11
301.0079324290199
 21
121.1521739130371
 31
0.0
  0
LINE
  8
ITEM_STPG
 10
301.0079324290199
 20
181.1521739130371
 30
0.0
 11
301.0079324290199
 21
214.219365509872
 31
0.0
  0
LINE
  8
ITEM_STPG
 10
301.0079324290199
 20
136.1521739130371
 30
0.0
 11
316.0079324290199
 21
136.1521739130371
 31
0.0
  0
LINE
  8
ITEM_STPG
 10
301.0079324290199
 20
136.1521739130371
 30
0.0
 11
286.0079324290199
 21
136.1521739130371
 31
0.0
  0
POINT
  8
ITEM_HILFE
 10
336.50793242902
 20
138.1521739130371
 30
0.0
  0
POINT
  8
ITEM_HILFE
 10
341.00793242902
 20
138.1521739130371
 30
0.0
  0
POINT
  8
ITEM_HILFE
 10
336.50793242902
 20
178.1521739130371
 30
0.0
  0
POINT
  8
ITEM_HILFE
 10
341.00793242902
 20
178.1521739130371
 30
0.0
  0
POINT
  8
ITEM_HILFE
 10
336.50793242902
 20
218.1521739130371
 30
0.0
  0
POINT
  8
ITEM_HILFE
 10
341.00793242902
 20
218.1521739130371
 30
0.0
  0
POINT
  8
ITEM_HILFE
 10
321.00793242902
 20
233.6521739130371
 30
0.0
  0
POINT
  8
ITEM_HILFE
 10
321.00793242902
 20
238.1521739130371
 30
0.0
  0
POINT
  8
ITEM_HILFE
 10
341.00793242902
 20
238.1521739130371
 30
0.0
  0
POINT
  8
ITEM_HILFE
 10
341.00793242902
 20
120.1521739130371
 30
0.0
  0
CIRCLE
  8
ITEM_50
 10
331.0079324290137
 20
155.1521739130371
 30
0.0
 40
3.399999999999999
  0
LINE
  8
ITEM_50
 10
288.0079324290199
 20
218.6521739130371
 30
0.0
 11
290.8302628993538
 21
218.6521739130371
 31
0.0
  0
LINE
  8
ITEM_50
 10
290.8302628993538
 20
218.6521739130371
 30
0.0
 11
296.8302628993538
 21
212.6521739130371
 31
0.0
  0
LINE
  8
ITEM_50
 10
296.8302628993538
 20
212.6521739130371
 30
0.0
 11
305.1856019586859
 21
212.6521739130371
 31
0.0
  0
LINE
  8
ITEM_50
 10
305.1856019586859
 20
212.6521739130371
 30
0.0
 11
311.1856019586859
 21
218.6521739130371
 31
0.0
  0
LINE
  8
ITEM_50
 10
311.1856019586859
 20
218.6521739130371
 30
0.0
 11
314.0079324290198
 21
218.6521739130371
 31
0.0
  0
LINE
  8
ITEM_50
 10
290.8302628993538
 20
218.6521739130371
 30
0.0
 11
290.8302628993538
 21
143.6521739130371
 31
0.0
  0
LINE
  8
ITEM_50
 10
296.8302628993539
 20
212.652173913037
 30
0.0
 11
296.8302628993538
 21
149.6521739130371
 31
0.0
  0
LINE
  8
ITEM_50
 10
305.1856019586859
 20
212.652173913037
 30
0.0
 11
305.1856019586859
 21
149.6521739130371
 31
0.0
  0
LINE
  8
ITEM_50
 10
311.1856019586859
 20
218.652173913037
 30
0.0
 11
311.1856019586859
 21
143.6521739130371
 31
0.0
  0
LINE
  8
ITEM_50
 10
286.5079324290261
 20
196.1521739130371
 30
0.0
 11
287.0079324290199
 21
196.1521739130371
 31
0.0
  0
LINE
  8
ITEM_50
 10
287.0079324290199
 20
217.6521739130371
 30
0.0
 11
287.0079324290199
 21
144.6521739130371
 31
0.0
  0
LINE
  8
ITEM_50
 10
315.0079324290198
 20
217.6521739130371
 30
0.0
 11
315.0079324290198
 21
144.6521739130372
 31
0.0
  0
LINE
  8
ITEM_50
 10
315.0079324290198
 20
196.1521739130371
 30
0.0
 11
315.5079324290136
 21
196.1521739130371
 31
0.0
  0
LINE
  8
ITEM_50
 10
287.0079324290199
 20
217.6521739130371
 30
0.0
 11
288.0079324290199
 21
218.6521739130371
 31
0.0
  0
LINE
  8
ITEM_50
 10
314.0079324290198
 20
218.6521739130371
 30
0.0
 11
315.0079324290198
 21
217.6521739130371
 31
0.0
  0
LINE
  8
ITEM_50
 10
288.0079324290199
 20
218.6521739130371
 30
0.0
 11
288.0079324290199
 21
143.6521739130371
 31
0.0
  0
LINE
  8
ITEM_50
 10
314.0079324290198
 20
218.6521739130371
 30
0.0
 11
314.0079324290198
 21
143.6521739130371
 31
0.0
  0
LINE
  8
ITEM_50
 10
314.0079324290198
 20
143.6521739130372
 30
0.0
 11
315.0079324290198
 21
144.6521739130372
 31
0.0
  0
LINE
  8
ITEM_50
 10
287.0079324290199
 20
144.6521739130371
 30
0.0
 11
288.0079324290199
 21
143.6521739130371
 31
0.0
  0
LINE
  8
ITEM_50
 10
311.1856019586859
 20
143.6521739130372
 30
0.0
 11
314.0079324290198
 21
143.6521739130372
 31
0.0
  0
LINE
  8
ITEM_50
 10
305.1856019586859
 20
149.6521739130372
 30
0.0
 11
311.1856019586859
 21
143.6521739130372
 31
0.0
  0
LINE
  8
ITEM_50
 10
296.8302628993538
 20
149.6521739130372
 30
0.0
 11
305.1856019586859
 21
149.6521739130372
 31
0.0
  0
LINE
  8
ITEM_50
 10
290.8302628993538
 20
143.6521739130371
 30
0.0
 11
296.8302628993538
 21
149.6521739130372
 31
0.0
  0
LINE
  8
ITEM_50
 10
288.0079324290199
 20
143.6521739130371
 30
0.0
 11
290.8302628993538
 21
143.6521739130371
 31
0.0
  0
LINE
  8
ITEM_50
 10
286.5079324290261
 20
166.1521739130371
 30
0.0
 11
287.0079324290199
 21
166.1521739130371
 31
0.0
  0
LINE
  8
ITEM_50
 10
315.0079324290198
 20
166.1521739130371
 30
0.0
 11
315.5079324290137
 21
166.1521739130371
 31
0.0
  0
LINE
  8
ITEM_50
 10
301.0079324290199
 20
221.1521739130434
 30
0.0
 11
316.0079324290136
 21
221.1521739130434
 31
0.0
  0
ARC
  8
ITEM_50
 10
316.0079324290137
 20
216.1521739130434
 30
0.0
 40
5.000000000000028
 50
0.0000000000003257
 51
90.00000000000065
  0
LINE
  8
ITEM_50
 10
321.0079324290137
 20
216.1521739130434
 30
0.0
 11
321.0079324290136
 21
203.6521739130371
 31
0.0
  0
ARC
  8
ITEM_50
 10
316.0079324290136
 20
203.6521739130371
 30
0.0
 40
5.0
 50
274.7801918471986
 51
0.0
  0
ARC
  8
ITEM_50
 10
316.5079324290138
 20
197.6730435414862
 30
0.0
 40
1.000000000000177
 50
94.78019184721028
 51
180.0000000000113
  0
LINE
  8
ITEM_50
 10
315.5079324290136
 20
197.673043541486
 30
0.0
 11
315.5079324290137
 21
164.6313042845887
 31
0.0
  0
ARC
  8
ITEM_50
 10
316.5079324290172
 20
164.6313042845854
 30
0.0
 40
1.000000000003467
 50
179.9999999998143
 51
258.6330825055152
  0
ARC
  8
ITEM_50
 10
316.5079324289691
 20
164.6313042845879
 30
0.0
 40
0.9999999999963363
 50
258.6330825082438
 51
265.2198081553434
  0
ARC
  8
ITEM_50
 10
316.0079324290137
 20
158.6521739130371
 30
0.0
 40
4.999999999999998
 50
0.0000000000003257
 51
85.21980815280193
  0
LINE
  8
ITEM_50
 10
321.0079324290137
 20
158.6521739130371
 30
0.0
 11
321.0079324290137
 21
124.1521739130434
 31
0.0
  0
ARC
  8
ITEM_50
 10
325.0079324290137
 20
124.1521739130434
 30
0.0
 40
4.0
 50
180.0000000000001
 51
270.0
  0
LINE
  8
ITEM_50
 10
325.0079324290137
 20
120.1521739130434
 30
0.0
 11
337.0079324290106
 21
120.1521739130434
 31
0.0
  0
ARC
  8
ITEM_50
 10
337.0079324290106
 20
124.1521739130434
 30
0.0
 40
4.0
 50
270.0
 51
0.0
  0
LINE
  8
ITEM_50
 10
341.0079324290106
 20
124.1521739130434
 30
0.0
 11
341.00793242902
 21
132.7201066530512
 31
0.0
  0
ARC
  8
ITEM_50
 10
339.5094715043255
 20
132.6521739130527
 30
0.0
 40
1.499999999999985
 50
2.595727371391541
 51
90.00000000012158
  0
LINE
  8
ITEM_50
 10
339.5094715043223
 20
134.1521739130527
 30
0.0
 11
337.5079324290107
 21
134.1521739130527
 31
0.0
  0
ARC
  8
ITEM_50
 10
337.5079324290107
 20
133.1521739130527
 30
0.0
 40
1.0
 50
90.0
 51
180.0000000000016
  0
LINE
  8
ITEM_50
 10
336.5079324290107
 20
133.1521739130527
 30
0.0
 11
336.5079324290106
 21
129.2767610948088
 31
0.0
  0
ARC
  8
ITEM_50
 10
335.383345849795
 20
129.2767598976064
 30
0.0
 40
1.124586579216225
 50
233.43140240709
 51
0.0000609954343364
  0
ARC
  8
ITEM_50
 10
349.6079324290106
 20
148.4521739130527
 30
0.0
 40
25.00000000000002
 50
216.6419281412139
 51
233.431463403227
  0
ARC
  8
ITEM_50
 10
332.7579324290106
 20
135.9191176217882
 30
0.0
 40
3.99999999999994
 50
179.9999999999983
 51
216.6419281412121
  0
LINE
  8
ITEM_50
 10
328.7579324290107
 20
135.9191176217883
 30
0.0
 11
328.7579324290107
 21
140.385230204311
 31
0.0
  0
ARC
  8
ITEM_50
 10
332.7579324290106
 20
140.385230204311
 30
0.0
 40
3.999999999999943
 50
143.3580718587863
 51
180.0000000000003
  0
ARC
  8
ITEM_50
 10
349.6079324290104
 20
127.8521739130465
 30
0.0
 40
24.99999999999986
 50
126.5685365967725
 51
143.3580718587856
  0
ARC
  8
ITEM_50
 10
335.3833458497952
 20
147.0275879284929
 30
0.0
 40
1.124586579216186
 50
359.9999390045685
 51
126.5685975929171
  0
LINE
  8
ITEM_50
 10
336.5079324290107
 20
147.0275867312905
 30
0.0
 11
336.5079324290107
 21
143.1521739130465
 31
0.0
  0
ARC
  8
ITEM_50
 10
337.5079324290107
 20
143.1521739130465
 30
0.0
 40
1.0
 50
180.0
 51
270.0
  0
LINE
  8
ITEM_50
 10
337.5079324290107
 20
142.1521739130465
 30
0.0
 11
339.5094715043223
 21
142.1521739130465
 31
0.0
  0
ARC
  8
ITEM_50
 10
339.5094715043252
 20
143.6521739130463
 30
0.0
 40
1.499999999999886
 50
269.999999999887
 51
357.4042726286158
  0
LINE
  8
ITEM_50
 10
341.0079324290196
 20
143.584241173048
 30
0.0
 11
341.0079324290106
 21
154.1521739130465
 31
0.0
  0
LINE
  8
ITEM_50
 10
341.0079324290106
 20
154.1521739130465
 30
0.0
 11
341.0079324290106
 21
162.1521739130496
 31
0.0
  0
LINE
  8
ITEM_50
 10
341.0079324290106
 20
162.1521739130496
 30
0.0
 11
341.00793242902
 21
172.7201066530482
 31
0.0
  0
ARC
  8
ITEM_50
 10
339.5094715043257
 20
172.6521739130498
 30
0.0
 40
1.49999999999975
 50
2.595727371385427
 51
90.00000000011506
  0
LINE
  8
ITEM_50
 10
339.5094715043227
 20
174.1521739130496
 30
0.0
 11
337.5079324290107
 21
174.1521739130496
 31
0.0
  0
ARC
  8
ITEM_50
 10
337.5079324290107
 20
173.1521739130496
 30
0.0
 40
1.000000000000028
 50
90.0
 51
180.0000000000016
  0
LINE
  8
ITEM_50
 10
336.5079324290107
 20
173.1521739130496
 30
0.0
 11
336.5079324290106
 21
169.2767610948057
 31
0.0
  0
ARC
  8
ITEM_50
 10
335.383345849795
 20
169.2767598976033
 30
0.0
 40
1.124586579216225
 50
233.43140240709
 51
0.0000609954343364
  0
ARC
  8
ITEM_50
 10
349.6079324290107
 20
188.4521739130495
 30
0.0
 40
24.99999999999993
 50
216.6419281412136
 51
233.4314634032267
  0
ARC
  8
ITEM_50
 10
332.7579324290107
 20
175.9191176217852
 30
0.0
 40
4.000000000000008
 50
179.9999999999996
 51
216.6419281412134
  0
LINE
  8
ITEM_50
 10
328.7579324290107
 20
175.9191176217852
 30
0.0
 11
328.7579324290107
 21
180.3852302043079
 31
0.0
  0
ARC
  8
ITEM_50
 10
332.7579324290106
 20
180.3852302043079
 30
0.0
 40
3.999999999999943
 50
143.3580718587863
 51
180.0
  0
ARC
  8
ITEM_50
 10
349.6079324290104
 20
167.8521739130434
 30
0.0
 40
24.99999999999985
 50
126.5685365967725
 51
143.3580718587856
  0
ARC
  8
ITEM_50
 10
335.3833458497952
 20
187.0275879284898
 30
0.0
 40
1.124586579216186
 50
359.99993900457
 51
126.5685975929171
  0
LINE
  8
ITEM_50
 10
336.5079324290107
 20
187.0275867312874
 30
0.0
 11
336.5079324290107
 21
183.1521739130433
 31
0.0
  0
ARC
  8
ITEM_50
 10
337.5079324290107
 20
183.1521739130433
 30
0.0
 40
1.0
 50
180.0
 51
270.0
  0
LINE
  8
ITEM_50
 10
337.5079324290107
 20
182.1521739130433
 30
0.0
 11
339.5094715043227
 21
182.1521739130433
 31
0.0
  0
ARC
  8
ITEM_50
 10
339.5094715043256
 20
183.6521739130432
 30
0.0
 40
1.499999999999914
 50
269.999999999887
 51
357.4042726286159
  0
LINE
  8
ITEM_50
 10
341.0079324290201
 20
183.5842411730449
 30
0.0
 11
341.0079324290106
 21
194.1521739130434
 31
0.0
  0
LINE
  8
ITEM_50
 10
341.0079324290106
 20
194.1521739130434
 30
0.0
 11
341.0079324290106
 21
202.1521739130465
 31
0.0
  0
LINE
  8
ITEM_50
 10
341.0079324290106
 20
202.1521739130465
 30
0.0
 11
341.00793242902
 21
212.720106653045
 31
0.0
  0
ARC
  8
ITEM_50
 10
339.5094715043257
 20
212.6521739130467
 30
0.0
 40
1.49999999999975
 50
2.595727371385427
 51
90.00000000011506
  0
LINE
  8
ITEM_50
 10
339.5094715043227
 20
214.1521739130465
 30
0.0
 11
337.5079324290107
 21
214.1521739130465
 31
0.0
  0
ARC
  8
ITEM_50
 10
337.5079324290107
 20
213.1521739130465
 30
0.0
 40
1.000000000000028
 50
90.0
 51
180.0000000000016
  0
LINE
  8
ITEM_50
 10
336.5079324290107
 20
213.1521739130465
 30
0.0
 11
336.5079324290106
 21
209.2767610948026
 31
0.0
  0
ARC
  8
ITEM_50
 10
335.383345849795
 20
209.2767598976001
 30
0.0
 40
1.124586579216225
 50
233.43140240709
 51
0.0000609954343364
  0
ARC
  8
ITEM_50
 10
349.6079324290105
 20
228.4521739130467
 30
0.0
 40
25.00000000000014
 50
216.6419281412143
 51
233.4314634032274
  0
ARC
  8
ITEM_50
 10
332.7579324290105
 20
215.919117621782
 30
0.0
 40
3.999999999999894
 50
179.9999999999987
 51
216.6419281412126
  0
LINE
  8
ITEM_50
 10
328.7579324290106
 20
215.9191176217821
 30
0.0
 11
328.7579324290106
 21
220.3852302043047
 31
0.0
  0
ARC
  8
ITEM_50
 10
332.7579324290106
 20
220.3852302043046
 30
0.0
 40
3.999999999999943
 50
143.3580718587849
 51
179.9999999999987
  0
ARC
  8
ITEM_50
 10
349.6079324290104
 20
207.8521739130403
 30
0.0
 40
24.99999999999985
 50
126.5685365967725
 51
143.3580718587856
  0
ARC
  8
ITEM_50
 10
335.3833458497951
 20
227.0275879284867
 30
0.0
 40
1.124586579216129
 50
359.9999390045685
 51
126.5685975929157
  0
LINE
  8
ITEM_50
 10
336.5079324290106
 20
227.0275867312843
 30
0.0
 11
336.5079324290106
 21
223.1521739130403
 31
0.0
  0
ARC
  8
ITEM_50
 10
337.5079324290106
 20
223.1521739130402
 30
0.0
 40
1.0
 50
179.9999999999983
 51
270.0
  0
LINE
  8
ITEM_50
 10
337.5079324290106
 20
222.1521739130402
 30
0.0
 11
339.5094715043226
 21
222.1521739130403
 31
0.0
  0
ARC
  8
ITEM_50
 10
339.5094715043258
 20
223.6521739130402
 30
0.0
 40
1.499999999999971
 50
269.9999999998784
 51
357.4042726286073
  0
LINE
  8
ITEM_50
 10
341.0079324290203
 20
223.5842411730417
 30
0.0
 11
341.0079324290105
 21
234.1521739130403
 31
0.0
  0
ARC
  8
ITEM_50
 10
337.0079324290105
 20
234.1521739130403
 30
0.0
 40
4.0
 50
0.0
 51
90.0
  0
LINE
  8
ITEM_50
 10
337.0079324290105
 20
238.1521739130403
 30
0.0
 11
326.439999689012
 21
238.1521739130371
 31
0.0
  0
ARC
  8
ITEM_50
 10
326.5079324290106
 20
236.6537129883426
 30
0.0
 40
1.500000000000013
 50
92.59572737139149
 51
180.0000000001205
  0
LINE
  8
ITEM_50
 10
325.0079324290106
 20
236.6537129883395
 30
0.0
 11
325.0079324290106
 21
234.6521739130404
 31
0.0
  0
ARC
  8
ITEM_50
 10
326.0079324290106
 20
234.6521739130404
 30
0.0
 40
1.0
 50
180.0
 51
270.0
  0
LINE
  8
ITEM_50
 10
326.0079324290106
 20
233.6521739130404
 30
0.0
 11
329.8833452472545
 21
233.6521739130403
 31
0.0
  0
ARC
  8
ITEM_50
 10
329.883346444457
 20
232.5275873338248
 30
0.0
 40
1.124586579216168
 50
323.431402407086
 51
90.00006099543433
  0
ARC
  8
ITEM_50
 10
310.7079324290103
 20
246.7521739130403
 30
0.0
 40
25.00000000000018
 50
306.6419281412143
 51
323.4314634032273
  0
ARC
  8
ITEM_50
 10
323.2409887202751
 20
229.9021739130403
 30
0.0
 40
3.999999999999877
 50
269.9999999999983
 51
306.6419281412123
  0
LINE
  8
ITEM_50
 10
323.240988720275
 20
225.9021739130404
 30
0.0
 11
318.7748761377524
 21
225.9021739130404
 31
0.0
  0
ARC
  8
ITEM_50
 10
318.7748761377524
 20
229.9021739130404
 30
0.0
 40
4.000000000000028
 50
233.3580718587853
 51
269.9999999999992
  0
ARC
  8
ITEM_50
 10
331.3079324290166
 20
246.7521739130402
 30
0.0
 40
24.99999999999981
 50
216.5685365967729
 51
233.358071858786
  0
ARC
  8
ITEM_50
 10
312.1325184135704
 20
232.5275873338248
 30
0.0
 40
1.124586579216208
 50
89.99993900456856
 51
216.5685975929163
  0
LINE
  8
ITEM_50
 10
312.1325196107728
 20
233.6521739130404
 30
0.0
 11
316.0079324290168
 21
233.6521739130404
 31
0.0
  0
ARC
  8
ITEM_50
 10
316.0079324290168
 20
234.6521739130404
 30
0.0
 40
1.0
 50
270.0
 51
0.0
  0
LINE
  8
ITEM_50
 10
317.0079324290168
 20
234.6521739130404
 30
0.0
 11
317.0079324290168
 21
236.6537129883394
 31
0.0
  0
ARC
  8
ITEM_50
 10
315.5079324290168
 20
236.6537129883426
 30
0.0
 40
1.5
 50
359.9999999998794
 51
87.4042726286085
  0
LINE
  8
ITEM_50
 10
315.5758651690154
 20
238.1521739130371
 30
0.0
 11
305.0079324290168
 21
238.1521739130403
 31
0.0
  0
LINE
  8
ITEM_50
 10
305.0079324290168
 20
238.1521739130403
 30
0.0
 11
301.0079324290199
 21
238.1521739130403
 31
0.0
  0
LINE
  8
ITEM_50
 10
301.0079324290199
 20
238.1521739130403
 30
0.0
 11
297.007932429023
 21
238.1521739130403
 31
0.0
  0
LINE
  8
ITEM_50
 10
297.007932429023
 20
238.1521739130403
 30
0.0
 11
286.4399996890245
 21
238.1521739130371
 31
0.0
  0
ARC
  8
ITEM_50
 10
286.507932429023
 20
236.6537129883426
 30
0.0
 40
1.500000000000013
 50
92.59572737139149
 51
180.0000000001205
  0
LINE
  8
ITEM_50
 10
285.007932429023
 20
236.6537129883394
 30
0.0
 11
285.007932429023
 21
234.6521739130404
 31
0.0
  0
ARC
  8
ITEM_50
 10
286.007932429023
 20
234.6521739130404
 30
0.0
 40
1.0
 50
180.0
 51
270.0
  0
LINE
  8
ITEM_50
 10
286.007932429023
 20
233.6521739130404
 30
0.0
 11
289.8833452472671
 21
233.6521739130404
 31
0.0
  0
ARC
  8
ITEM_50
 10
289.8833464444695
 20
232.5275873338248
 30
0.0
 40
1.124586579216225
 50
323.4314024070836
 51
90.00006099543143
  0
ARC
  8
ITEM_50
 10
270.7079324290232
 20
246.7521739130402
 30
0.0
 40
24.99999999999981
 50
306.641928141214
 51
323.4314634032269
  0
ARC
  8
ITEM_50
 10
283.2409887202874
 20
229.9021739130404
 30
0.0
 40
4.000000000000035
 50
270.0000000000007
 51
306.6419281412146
  0
LINE
  8
ITEM_50
 10
283.2409887202875
 20
225.9021739130404
 30
0.0
 11
278.7748761377649
 21
225.9021739130404
 31
0.0
  0
ARC
  8
ITEM_50
 10
278.7748761377648
 20
229.9021739130403
 30
0.0
 40
3.999999999999886
 50
233.3580718587876
 51
270.0000000000016
  0
ARC
  8
ITEM_50
 10
291.3079324290295
 20
246.7521739130405
 30
0.0
 40
25.00000000000028
 50
216.5685365967729
 51
233.358071858786
  0
ARC
  8
ITEM_50
 10
272.1325184135829
 20
232.5275873338248
 30
0.0
 40
1.124586579216203
 50
89.99993900456566
 51
216.5685975929111
  0
LINE
  8
ITEM_50
 10
272.1325196107853
 20
233.6521739130403
 30
0.0
 11
276.0079324290293
 21
233.6521739130404
 31
0.0
  0
ARC
  8
ITEM_50
 10
276.0079324290293
 20
234.6521739130404
 30
0.0
 40
1.0
 50
270.0
 51
0.0
  0
LINE
  8
ITEM_50
 10
277.0079324290293
 20
234.6521739130404
 30
0.0
 11
277.0079324290293
 21
236.6537129883395
 31
0.0
  0
ARC
  8
ITEM_50
 10
275.5079324290293
 20
236.6537129883426
 30
0.0
 40
1.5
 50
359.9999999998794
 51
87.4042726286085
  0
LINE
  8
ITEM_50
 10
275.5758651690278
 20
238.1521739130371
 30
0.0
 11
265.0079324290293
 21
238.1521739130403
 31
0.0
  0
ARC
  8
ITEM_50
 10
265.0079324290293
 20
234.1521739130403
 30
0.0
 40
4.0
 50
90.0
 51
180.0
  0
LINE
  8
ITEM_50
 10
261.0079324290293
 20
234.1521739130403
 30
0.0
 11
261.0079324290195
 21
223.5842411730417
 31
0.0
  0
ARC
  8
ITEM_50
 10
262.506393353714
 20
223.6521739130403
 30
0.0
 40
1.499999999999987
 50
182.5957273713937
 51
270.0000000001237
  0
LINE
  8
ITEM_50
 10
262.5063933537172
 20
222.1521739130403
 30
0.0
 11
264.5079324290292
 21
222.1521739130402
 31
0.0
  0
ARC
  8
ITEM_50
 10
264.5079324290292
 20
223.1521739130402
 30
0.0
 40
1.000000000000028
 50
270.0
 51
0.0000000000016284
  0
LINE
  8
ITEM_50
 10
265.5079324290292
 20
223.1521739130403
 30
0.0
 11
265.5079324290292
 21
227.0275867312843
 31
0.0
  0
ARC
  8
ITEM_50
 10
266.6325190082447
 20
227.0275879284867
 30
0.0
 40
1.124586579216168
 50
53.43140240708282
 51
180.0000609954299
  0
ARC
  8
ITEM_50
 10
252.4079324290294
 20
207.8521739130403
 30
0.0
 40
24.99999999999986
 50
36.64192814121432
 51
53.4314634032274
  0
ARC
  8
ITEM_50
 10
269.2579324290292
 20
220.3852302043047
 30
0.0
 40
3.999999999999945
 50
0.0
 51
36.64192814121363
  0
LINE
  8
ITEM_50
 10
273.2579324290292
 20
220.3852302043047
 30
0.0
 11
273.2579324290292
 21
215.9191176217821
 31
0.0
  0
ARC
  8
ITEM_50
 10
269.2579324290293
 20
215.9191176217819
 30
0.0
 40
3.999999999999886
 50
323.3580718587888
 51
0.0000000000024427
  0
ARC
  8
ITEM_50
 10
252.4079324290293
 20
228.4521739130467
 30
0.0
 40
25.00000000000016
 50
306.5685365967726
 51
323.3580718587857
  0
ARC
  8
ITEM_50
 10
266.6325190082449
 20
209.2767598976001
 30
0.0
 40
1.124586579216186
 50
179.9999390045656
 51
306.5685975929099
  0
LINE
  8
ITEM_50
 10
265.5079324290293
 20
209.2767610948026
 30
0.0
 11
265.5079324290292
 21
213.1521739130465
 31
0.0
  0
ARC
  8
ITEM_50
 10
264.5079324290292
 20
213.1521739130465
 30
0.0
 40
1.0
 50
359.9999999999983
 51
90.0
  0
LINE
  8
ITEM_50
 10
264.5079324290292
 20
214.1521739130465
 30
0.0
 11
262.5063933537171
 21
214.1521739130465
 31
0.0
  0
ARC
  8
ITEM_50
 10
262.5063933537142
 20
212.6521739130467
 30
0.0
 40
1.499999999999744
 50
89.99999999988709
 51
177.4042726286156
  0
LINE
  8
ITEM_50
 10
261.0079324290199
 20
212.720106653045
 30
0.0
 11
261.0079324290293
 21
202.1521739130465
 31
0.0
  0
LINE
  8
ITEM_50
 10
261.0079324290293
 20
202.1521739130465
 30
0.0
 11
261.0079324290293
 21
194.1521739130434
 31
0.0
  0
LINE
  8
ITEM_50
 10
261.0079324290293
 20
194.1521739130434
 30
0.0
 11
261.0079324290198
 21
183.5842411730449
 31
0.0
  0
ARC
  8
ITEM_50
 10
262.5063933537142
 20
183.6521739130432
 30
0.0
 40
1.499999999999861
 50
182.595727371383
 51
270.0000000001129
  0
LINE
  8
ITEM_50
 10
262.5063933537171
 20
182.1521739130433
 30
0.0
 11
264.5079324290292
 21
182.1521739130433
 31
0.0
  0
ARC
  8
ITEM_50
 10
264.5079324290292
 20
183.1521739130433
 30
0.0
 40
1.0
 50
270.0
 51
0.0
  0
LINE
  8
ITEM_50
 10
265.5079324290292
 20
183.1521739130433
 30
0.0
 11
265.5079324290292
 21
187.0275867312874
 31
0.0
  0
ARC
  8
ITEM_50
 10
266.6325190082447
 20
187.0275879284898
 30
0.0
 40
1.124586579216168
 50
53.43140240708282
 51
180.0000609954299
  0
ARC
  8
ITEM_50
 10
252.4079324290294
 20
167.8521739130434
 30
0.0
 40
24.99999999999986
 50
36.64192814121432
 51
53.4314634032274
  0
ARC
  8
ITEM_50
 10
269.2579324290292
 20
180.3852302043079
 30
0.0
 40
3.999999999999945
 50
0.0
 51
36.64192814121363
  0
LINE
  8
ITEM_50
 10
273.2579324290292
 20
180.3852302043079
 30
0.0
 11
273.2579324290292
 21
175.9191176217852
 31
0.0
  0
ARC
  8
ITEM_50
 10
269.2579324290292
 20
175.9191176217852
 30
0.0
 40
4.0
 50
323.3580718587865
 51
0.0000000000004071
  0
ARC
  8
ITEM_50
 10
252.4079324290292
 20
188.4521739130495
 30
0.0
 40
24.99999999999996
 50
306.5685365967733
 51
323.3580718587863
  0
ARC
  8
ITEM_50
 10
266.6325190082449
 20
169.2767598976033
 30
0.0
 40
1.124586579216186
 50
179.9999390045656
 51
306.5685975929099
  0
LINE
  8
ITEM_50
 10
265.5079324290293
 20
169.2767610948057
 30
0.0
 11
265.5079324290292
 21
173.1521739130496
 31
0.0
  0
ARC
  8
ITEM_50
 10
264.5079324290292
 20
173.1521739130496
 30
0.0
 40
1.0
 50
359.9999999999983
 51
90.0
  0
LINE
  8
ITEM_50
 10
264.5079324290292
 20
174.1521739130496
 30
0.0
 11
262.5063933537171
 21
174.1521739130496
 31
0.0
  0
ARC
  8
ITEM_50
 10
262.5063933537142
 20
172.6521739130498
 30
0.0
 40
1.499999999999744
 50
89.99999999988709
 51
177.4042726286156
  0
LINE
  8
ITEM_50
 10
261.0079324290199
 20
172.7201066530482
 30
0.0
 11
261.0079324290293
 21
162.1521739130496
 31
0.0
  0
LINE
  8
ITEM_50
 10
261.0079324290293
 20
162.1521739130496
 30
0.0
 11
261.0079324290293
 21
154.1521739130465
 31
0.0
  0
LINE
  8
ITEM_50
 10
261.0079324290293
 20
154.1521739130465
 30
0.0
 11
261.0079324290202
 21
143.584241173048
 31
0.0
  0
ARC
  8
ITEM_50
 10
262.5063933537146
 20
143.6521739130464
 30
0.0
 40
1.49999999999992
 50
182.5957273713851
 51
270.0000000001129
  0
LINE
  8
ITEM_50
 10
262.5063933537176
 20
142.1521739130465
 30
0.0
 11
264.5079324290292
 21
142.1521739130465
 31
0.0
  0
ARC
  8
ITEM_50
 10
264.5079324290292
 20
143.1521739130465
 30
0.0
 40
1.0
 50
270.0
 51
0.0
  0
LINE
  8
ITEM_50
 10
265.5079324290292
 20
143.1521739130465
 30
0.0
 11
265.5079324290292
 21
147.0275867312905
 31
0.0
  0
ARC
  8
ITEM_50
 10
266.6325190082447
 20
147.0275879284929
 30
0.0
 40
1.124586579216168
 50
53.43140240708282
 51
180.0000609954314
  0
ARC
  8
ITEM_50
 10
252.4079324290294
 20
127.8521739130465
 30
0.0
 40
24.99999999999988
 50
36.6419281412143
 51
53.43146340322736
  0
ARC
  8
ITEM_50
 10
269.2579324290292
 20
140.385230204311
 30
0.0
 40
3.999999999999945
 50
359.9999999999996
 51
36.64192814121363
  0
LINE
  8
ITEM_50
 10
273.2579324290292
 20
140.385230204311
 30
0.0
 11
273.2579324290292
 21
135.9191176217883
 31
0.0
  0
ARC
  8
ITEM_50
 10
269.2579324290292
 20
135.9191176217882
 30
0.0
 40
3.999999999999943
 50
323.3580718587878
 51
0.0000000000016284
  0
ARC
  8
ITEM_50
 10
252.4079324290293
 20
148.4521739130527
 30
0.0
 40
25.00000000000002
 50
306.568536596773
 51
323.358071858786
  0
ARC
  8
ITEM_50
 10
266.6325190082449
 20
129.2767598976064
 30
0.0
 40
1.124586579216186
 50
179.9999390045656
 51
306.5685975929099
  0
LINE
  8
ITEM_50
 10
265.5079324290293
 20
129.2767610948088
 30
0.0
 11
265.5079324290292
 21
133.1521739130527
 31
0.0
  0
ARC
  8
ITEM_50
 10
264.5079324290292
 20
133.1521739130527
 30
0.0
 40
1.0
 50
359.9999999999983
 51
90.0
  0
LINE
  8
ITEM_50
 10
264.5079324290292
 20
134.1521739130527
 30
0.0
 11
262.5063933537176
 21
134.1521739130527
 31
0.0
  0
ARC
  8
ITEM_50
 10
262.5063933537144
 20
132.6521739130527
 30
0.0
 40
1.5
 50
89.99999999987841
 51
177.4042726286084
  0
LINE
  8
ITEM_50
 10
261.0079324290199
 20
132.7201066530512
 30
0.0
 11
261.0079324290293
 21
124.1521739130434
 31
0.0
  0
ARC
  8
ITEM_50
 10
265.0079324290293
 20
124.1521739130434
 30
0.0
 40
4.0
 50
180.0
 51
270.0
  0
LINE
  8
ITEM_50
 10
265.0079324290293
 20
120.1521739130434
 30
0.0
 11
277.0079324290261
 21
120.1521739130434
 31
0.0
  0
ARC
  8
ITEM_50
 10
277.0079324290261
 20
124.1521739130434
 30
0.0
 40
3.999999999999985
 50
270.0
 51
359.9999999999997
  0
LINE
  8
ITEM_50
 10
281.0079324290261
 20
124.1521739130434
 30
0.0
 11
281.0079324290261
 21
158.6521739130371
 31
0.0
  0
ARC
  8
ITEM_50
 10
286.0079324290261
 20
158.6521739130371
 30
0.0
 40
5.0
 50
94.78019184719806
 51
179.9999999999996
  0
ARC
  8
ITEM_50
 10
285.5079324290708
 20
164.6313042845879
 30
0.0
 40
0.999999999996336
 50
274.7801918446565
 51
281.3669174917561
  0
ARC
  8
ITEM_50
 10
285.5079324290227
 20
164.6313042845854
 30
0.0
 40
1.000000000003445
 50
281.3669174944847
 51
0.0000000001856426
  0
LINE
  8
ITEM_50
 10
286.5079324290261
 20
164.6313042845887
 30
0.0
 11
286.5079324290262
 21
197.673043541486
 31
0.0
  0
ARC
  8
ITEM_50
 10
285.507932429026
 20
197.6730435414862
 30
0.0
 40
1.00000000000017
 50
359.9999999999885
 51
85.21980815278971
  0
ARC
  8
ITEM_50
 10
286.0079324290262
 20
203.6521739130371
 30
0.0
 40
5.000000000000032
 50
180.0
 51
265.2198081528013
  0
LINE
  8
ITEM_50
 10
281.0079324290262
 20
203.6521739130371
 30
0.0
 11
281.0079324290261
 21
216.1521739130434
 31
0.0
  0
ARC
  8
ITEM_50
 10
286.0079324290261
 20
216.1521739130434
 30
0.0
 40
5.0
 50
89.99999999999934
 51
179.9999999999996
  0
LINE
  8
ITEM_50
 10
286.0079324290262
 20
221.1521739130434
 30
0.0
 11
301.0079324290199
 21
221.1521739130434
 31
0.0
  0
LINE
  8
ITEM_STPG
 10
86.00793242901674
 20
110.1521739130434
 30
0.0
 11
86.00793242901677
 21
20.15217391304348
 31
0.0
  0
ARC
  8
ITEM_50
 10
30.00793242901677
 20
101.1521739130434
 30
0.0
 40
4.0
 50
90.0
 51
180.0
  0
ARC
  8
ITEM_50
 10
30.0079324290168
 20
29.15217391304348
 30
0.0
 40
4.0
 50
180.0
 51
270.0
  0
ARC
  8
ITEM_50
 10
142.0079324290167
 20
29.15217391304348
 30
0.0
 40
4.0
 50
270.0
 51
0.0
  0
ARC
  8
ITEM_50
 10
142.0079324290167
 20
101.1521739130434
 30
0.0
 40
4.0
 50
0.0
 51
90.0
  0
LINE
  8
ITEM_50
 10
26.0079324290168
 20
29.15217391304348
 30
0.0
 11
26.00793242901677
 21
101.1521739130434
 31
0.0
  0
LINE
  8
ITEM_50
 10
146.0079324290167
 20
101.1521739130434
 30
0.0
 11
146.0079324290167
 21
29.15217391304348
 31
0.0
  0
LINE
  8
ITEM_50
 10
36.00793242901677
 20
49.15217391304348
 30
0.0
 11
136.0079324290167
 21
49.15217391304348
 31
0.0
  0
LINE
  8
ITEM_50
 10
136.0079324290167
 20
41.15217391304348
 30
0.0
 11
36.00793242901677
 21
41.15217391304348
 31
0.0
  0
LINE
  8
ITEM_50
 10
36.00793242901677
 20
81.15217391304348
 30
0.0
 11
136.0079324290167
 21
81.15217391304348
 31
0.0
  0
LINE
  8
ITEM_50
 10
136.0079324290167
 20
89.15217391304348
 30
0.0
 11
36.00793242901677
 21
89.15217391304348
 31
0.0
  0
LINE
  8
ITEM_50
 10
30.00793242901677
 20
105.1521739130434
 30
0.0
 11
142.0079324290167
 21
105.1521739130434
 31
0.0
  0
LINE
  8
ITEM_50
 10
36.00793242901677
 20
25.15217391304348
 30
0.0
 11
36.00793242901677
 21
105.1521739130434
 31
0.0
  0
LINE
  8
ITEM_50
 10
30.0079324290168
 20
25.15217391304348
 30
0.0
 11
142.0079324290167
 21
25.15217391304348
 31
0.0
  0
LINE
  8
ITEM_50
 10
136.0079324290167
 20
105.1521739130434
 30
0.0
 11
136.0079324290167
 21
25.15217391304348
 31
0.0
  0
ENDSEC
  0
EOF
